ACOUSTIC COMPTOIR

Le forum guitare et chant pour débutants et confirmés
 
AccueilFAQMembresS'enregistrerConnexion

Partagez | 
 

 (Debutant) Acoustic Arpeggio - AxelSastre

Voir le sujet précédent Voir le sujet suivant Aller en bas 
AuteurMessage
xX_Axel_Xx

Jeune recrue
avatar

Masculin Messages : 47
Date d'inscription : 21/10/2010
Age : 26
Localisation : Epernay


MessageSujet: (Debutant) Acoustic Arpeggio - AxelSastre   Dim 1 Jan 2012 - 9:20

Pour le délire j'ai fais une video de ce type



---------------------------------------------------------------
TAB
---------------------------------------------------------------



C Em7

E||--0--------0--0--------0--|--0---------0--0--------0--|
B||--------1-----------1-----|---------3-----------3-----|
G||-----0-----------0--------|------0-----------0--------|
D||--------------------------|---------------------------|
A||--3-----------3-----------|--2------------2-----------|
E||--------------------------|---------------------------|


Gm6 A7

--0---------0--0--------0--|--0--------0--0--------0--|
---------3-----------3-----|--------2-----------2-----|
------0-----------0--------|-----0-----------0--------|
---------------------------|--------------------------|
--1------------1-----------|--0-----------0-----------|
---------------------------|--------------------------|


Dm F6

--1--------1--1--------1--|--1--------1--1--------1--|
--------3-----------3-----|--------3-----------3-----|
-----2-----------2--------|-----2-----------2--------|
--0-----------0-----------|--------------------------|
--------------------------|--3-----------3-----------|
--------------------------|--------------------------|


G7 C

--1--------1--1--------1--|--0--------0--0--------0--|
--------3-----------3-----|--------1-----------1-----|
-----0-----------0--------|-----0-----------0--------|
--------------------------|--------------------------|
--2-----------2-----------|--3-----------3-----------|
--------------------------|--------------------------|


C Em7

--------0---------------0---------|----------0---------------0---------|
------1---1---1-------1---1---1---|--------3---3---3-------3---3---3---|
----0-------0---0---0-------0---0-|------0-------0---0---0-------0---0-|
----------------------------------|------------------------------------|
--3---------------3---------------|--2-----------------2---------------|
----------------------------------|------------------------------------|


Gm6 A7

----------0---------------0---------|---------0---------------0---------|
--------3---3---3-------3---3---3---|-------2---2---2-------2---2---2---|
------0-------0---0---0-------0---0-|-----0-------0---0---0-------0---0-|
------------------------------------|-----------------------------------|
--1-----------------1---------------|--0----------------0---------------|
------------------------------------|-----------------------------------|


Dm F6

---------1---------------1---------|---------1---------------1---------|
-------3---3---3-------3---3---3---|-------3---3---3-------3---3---3---|
-----2-------2---2---2-------2---2-|-----2-------2---2---2-------2---2-|
--0----------------0---------------|-----------------------------------|
-----------------------------------|--3----------------3---------------|
-----------------------------------|-----------------------------------|


G7 C

---------1---------------1---------|--------0---------------0---------|
-------3---3---3-------3---3---3---|------1---1---1-------1---1---1---|
-----0-------0---0---0-------0---0-|----0-------0---0---0-------0---0-|
-----------------------------------|----------------------------------|
--2----------------2---------------|--3---------------3---------------|
-----------------------------------|----------------------------------|



-------------------||
-------------------||
-------------------||
-------------------||
--3----------------||
-------------------||
Revenir en haut Aller en bas
Flo

Pilier de bar
avatar

Féminin Messages : 1706
Date d'inscription : 13/08/2010
Age : 40
Localisation : Haute-Loire (43)
Humeur : Zen


MessageSujet: Re: (Debutant) Acoustic Arpeggio - AxelSastre   Lun 2 Jan 2012 - 22:14

Très jolie mélodie, c'est un excellent exercice pour s'entrainer aux arpèges .....



Dès que je trouve un moment je m'y colle, je suis encore une bille en arpèges, c'est l'occasion je crois .....

Merci ! Wink
Revenir en haut Aller en bas
ludane

Pilier de bar
avatar

Masculin Messages : 3103
Date d'inscription : 11/08/2010
Age : 45
Localisation : albert dans la somme 80
Pseudo Dailymotion :
Pseudo Youtube : ludane80
Humeur : ben ca va mais je me soigne lol


MessageSujet: Re: (Debutant) Acoustic Arpeggio - AxelSastre   Lun 2 Jan 2012 - 23:18

hello Axel merci beaucoup pour ce partage
tu as bien fait de la poster,je sais que ton temps t es compté et pour cela ça fait encore plus plaisir que tu prennes le temps pour partager
je te souhaite de réussir dans la musique car je sais que c est ton rêve et vue ton talent et ta motivation je n en doute pas
a plus
lulu
ps délire plus souvent lol
Revenir en haut Aller en bas
http://www.youtube.com/user/ludane80
xX_Axel_Xx

Jeune recrue
avatar

Masculin Messages : 47
Date d'inscription : 21/10/2010
Age : 26
Localisation : Epernay


MessageSujet: Re: (Debutant) Acoustic Arpeggio - AxelSastre   Lun 2 Jan 2012 - 23:58

Merci pour ton message Ludane sa fais plaisir Wink
Revenir en haut Aller en bas
o.s

Pilier de bar
avatar

Masculin Messages : 1517
Date d'inscription : 02/09/2010
Age : 41
Localisation : 49
Pseudo Youtube : os16071976


MessageSujet: Re: (Debutant) Acoustic Arpeggio - AxelSastre   Mar 3 Jan 2012 - 14:11

merci axel Wink

_________________
Celui qui se refuse à devenir meilleur cesse déjà d'être bon



Revenir en haut Aller en bas
http://www.youtube.com/user/os16071976?feature=mhum
Serael

Jeune recrue

Messages : 14
Date d'inscription : 01/02/2017


MessageSujet: Re: (Debutant) Acoustic Arpeggio - AxelSastre   Jeu 16 Mar 2017 - 20:04

Salut !
Les arpèges sont une de mes techniques préférées. Elles peuvent donner une autre dimension au jeu d’un guitariste. À ceux qui souhaitent maîtriser cette technique, je suggère l’écoute du travail de Marty Friedman, d’Alexi Laiho, et de Jason Becker. Ce sont des guitaristes qui utilisent beaucoup de « sweep-picking ».
Bonne chance :)
Revenir en haut Aller en bas
Contenu sponsorisé




MessageSujet: Re: (Debutant) Acoustic Arpeggio - AxelSastre   

Revenir en haut Aller en bas
 

(Debutant) Acoustic Arpeggio - AxelSastre

Voir le sujet précédent Voir le sujet suivant Revenir en haut 

 Sujets similaires

-
» distortion sur ampli acoustic ?
» Nouveau et debutant....alors la les mec y a du boulot!!
» conseil debutant mpc !?
» Semi acoustic lap steel
» Revenge Acoustic à la BBC Radio 1
Page 1 sur 1

Permission de ce forum:Vous ne pouvez pas répondre aux sujets dans ce forum
ACOUSTIC COMPTOIR :: Guitare et Chant :: Apprentissage de la guitare :: Les techniques de jeu :: Pour tout savoir sur Arpège et Picking-