ACOUSTIC COMPTOIR

Le forum guitare et chant pour débutants et confirmés
 
AccueilFAQMembresS'enregistrerConnexion

Partagez | 
 

 Betty de Bernard Lavilliers

Voir le sujet précédent Voir le sujet suivant Aller en bas 
AuteurMessage
durbecos

Pilier de bar
avatar

Masculin Messages : 2688
Date d'inscription : 31/07/2011
Age : 53
Localisation : brive la gaillarde
Pseudo Youtube : durbecos
Humeur : j'ai décidé d'être heureux, c'est bon pour ma santé !


MessageSujet: Betty de Bernard Lavilliers   Jeu 11 Avr 2013 - 7:26





ce n'est pas loin, ce n'est pas loin.....ça va venir....ce n'est plus en cours d'apprentissage...!

c'est pour moi quand même un morceau assez raide compte tenu qu'il n y a pas beaucoup d'accords simples, et il faut tenir

la distance....

avec un peu de recul, je regrette de ne pas avoir utilisé ma nylon classique dont le manche est un poil plus large...

j'ai voulu privilégier la qualité du son en occultant legerement la qualité de ma reprise....je me suis remis au travail avec ma vieille

trombinette....tant pis pour le son, après plusieurs essais, cela sonne beaucoup mieux...il me reste à acheter des cordes car

les dernières ont de plus de 3/4 ans....

je vous joint la tab pour ceux qui ont envie d'essayer...j'ai juste fait 2/3 modifs.....

Bernard LAvilliers : Betty

--------------------



Intro :



|-----------------|-----------------|-----------------|-----------------|-0---------------|

|---0-0-0-0-0-0-0-|-0---0------0----|---0-0-0-0-0-0-0-|-0-0-0-----------|-1---------------|

|---2-2-2-2-2-2-2-|-2---2------2----|---2-2-2-2-2-2-2-|-2-2-2-----------|-2---------------|

|---3-3-3-3-3-3-3-|-3^4-4------4----|---3-3-3-3-3-3-3-|-3-3-4-----------|-3---------------|

|-0---------------|----------0---0--|-0---------------|-----------------|-----------------|

|-----------------|-----------------|-----------------|-----------------|-----------------|



*1*



||-----------------|-----------5-----|-------0---------|-------0---------|

||-------5---------|-------5-----5---|-----1---1---1---|-----1---1-------|

||-----7---7---7---|-----7---7-------|---2-------2---2-|---2-------2-----|

||---7-------7---7-|---6-----------0-|-3---------------|-3-----------0---|

||-----------------|-----------------|-----------------|-----------------|

||-7---------------|-6---------------|-----------------|-----------------|



|-----------------|-----------5-----|-----------------|------------------|

|-------5---------|-------5-----5---|-------3---------|-------3----------|

|-----7---7---7---|-----7---7-------|-----2---2---2---|-----2---2---2----|

|---7-------7---7-|---6-----------0-|---3-------3---3-|---3-------3---3--|

|-----------------|-----------------|-2---------------|-2----------------|

|-7---------------|-6---------------|-----------------|------------------|



|-----------------|-----------0-----|-------0---------|---------0--------|

|-------3---------|-------3-----3---|-----0---0---0---|-------1---1---1--|

|-----2---2---2---|-----2---2-----2-|---1-------1---1-|-----4-------4----|

|---3-------3---3-|---3-------------|-----------------|---2--------------|

|-1---------------|-2---------------|-----------------|-0----------------|

|-----------------|-----------------|-0---------------|------------------|





|-------0---------|---------5-------|-------5---------|

|-----1---1---1---|-------6---6-----|-----6---6---6---|

|---2-------2---2-|-----7-------7---|---7-------7---0-|

|-----------------|---7-----------7-|-----------------|

|-0---------------|-5---------------|-5---------------|

|-----------------|-----------------|-----------------|



|-----------------|------------------|-----------------|-----------------|

|---0-0-0-0-0-0-0-|-0---0------0-0-0-|---0-0-0-0-0-0-0-|-0---0-----------|

|---2-2-2-2-2-2-2-|-2---2------2-2-2-|---2-2-2-2-2-2-2-|-2---2-------0---|

|---3-3-3-3-3-3-3-|-3^4-4------4-4-4-|---3-3-3-3-3-3-3-|-3^4-4-----4-----|

|-0---------------|------------------|-0---------------|---------0-------|

|-----------------|------------------|-----------------|-----------------|



|-------0---------|-------0----------||

|-----1---1---1---|-----1---1--------|| retour jusqu'à *1*

|---2-------2---2-|---2-------2------|| au 2ème passage, on joue

|-3---------------|-3-----------0----|| le refrain

|-----------------|------------------||

|-----------------|------------------||



Refrain :



|-----------0-----|-----------0-----|-----------0-----|-----------0-----|

|-------2-----2---|-------2-----2---|-------2-----2---|-------2-----2---|

|-----2---2-----2-|-----2---2-----2-|-----2---2-------|-----2---2-----2-| x2

|---2-------------|---2-------------|---0-------------|---0-------------| puis

|-0---------------|-----------------|-----------------|-----------------|

|-----------------|-3---------------|-2-------------0-|-1---------------|



|-----------0-----|-----------------|-----------------|-----------------|

|-------2-----2---|-------5---------|-------2-----2---|-------2-----2---|

|-----2---2-----2-|-----4---4---4---|-----2---2-----2-|-----2---2-----2-|

|---2-------------|---2-------2---2-|---4-------4-----|---4-------4-----|

|-0---------------|-----------------|-----------------|-----------------|

|-----------------|-4---------------|-2---------------|-2---------------|



|-------1---------|-----------------|-----------------|-----------------||

|-----1---1---1---|-------1---------|-------3---------|-------5---------||

|---2-------2---2-|-----1---1---1---|-----2---2---2---|---------7---7---|| retour

|-----------------|---2-------2---2-|---3-------3---3-|-----6-----6---6-|| intro

|-----------------|-----------------|-2---------------|---7-------------||

|-1---------------|-1---------------|-----------------|-0---------------||



|---------0-------|

|-------2---------| au ralenti

|-----2-----------| à la fin

|---2-------------|

|-0---------------|

|-----------------|





Tu n’as pas sommeil – tu fumes et tu veilles – t’es toute écorchée

Tu es comme un chat triste – perdu sur la liste des objets trouvés

La nuit carcérale tombant sur les dalles et ce lit glacé

Aller et venir – soleil et sourire sont de l’autre côté

Ces murs – ces grillages – ces portes et ces cages – ces couloirs – ces clés

Cette solitude si dure et si rude qu’on peut la toucher

Ce rayon de lune sur le sol allume – visage oublié – de celui que tu aimes

Qui tire sur sa chaîne comme un loup blessé



Betty – faut pas craquer

Betty – faut pas plonger

Je sais – ils t’ont couchée là

Et puis ils ont fermé leurs barreaux d’acier

Betty – faut pas pleurer

Betty – faut pas trembler

Je sais – tu vas rester là

T’aimerais plus te réveiller – plus jamais rêver



Je te dis je t’aime dans ce court poème – dans ce long baiser

Tu es ma frangine – juste une féminine que j’avais rimée

Je te donne ma force – mes mots et mes notes pour te réchauffer

Je hais la morale – les prisons centrales – les maisons d’arrêt

Je n’ai pas sommeil – je fume et je veille et j’ai composé

Une chanson d’amour – une chanson secours pour l’autre côté

Pour ceux que l’on jette dans les oubliettes – dans l’obscurité

Pendant que les gens dorment au fond du conforme sans se réveiller



Betty – faut pas craquer

Betty – faut pas plonger

Je sais – ils t’ont couchée là

Et puis ils ont fermé leurs barreaux d’acier

Betty – faut pas pleurer

Betty – faut pas trembler

Tu sais – on se retrouvera là – ailleurs – en plein soleil…
Revenir en haut Aller en bas
tlswing

Modérateur
avatar

Masculin Messages : 1169
Date d'inscription : 22/03/2013
Age : 53
Localisation : Toulouse
Pseudo Youtube : tlswing


MessageSujet: Re: Betty de Bernard Lavilliers   Jeu 11 Avr 2013 - 11:38

Sacré boulot mon Chris, tu m'en avais fait part de quelques notes chez toi et le travail paye dans tous les cas !

le chant est un peu trop détaché saccadé, et j'ai l'impréssion qui manque une fin d'arpége par endroit, faut que je l'a récoute en détail avec la tab sous les yeux

mais l'ensemble est assez cohérent, tu sais que je ne me suis jamais aventuré totalement sur ce titre, il m'a toujours posé des difficultés, Sad
mais tu me redonne envie de le travailler :)
la bise mon chris
Revenir en haut Aller en bas
http://www.youtube.com/tlswing
torito

Pilier de bar
avatar

Masculin Messages : 2044
Date d'inscription : 11/08/2010
Age : 51
Localisation : 34 l'herault, entre Agde et Pézenas


MessageSujet: Re: Betty de Bernard Lavilliers   Jeu 11 Avr 2013 - 15:32

durbecos a écrit:
je me suis remis au travail avec ma vieille

trombinette....tant pis pour le son, après plusieurs essais, cela sonne beaucoup mieux...il me reste à acheter des cordes car

les dernières ont de plus de 3/4 ans....

6minutes ouaou.
merci pour la tab;
j'ai pas encore écouté, je fais ça ce soir... par contre, 3/4 ans un jeu de cords, purée, c 'est quelle marque ???
Revenir en haut Aller en bas
thierrydelnatte

Pilier de bar
avatar

Masculin Messages : 1114
Date d'inscription : 27/01/2011
Age : 55
Localisation : France, Nord, HEM
Pseudo Dailymotion : pas encore
Pseudo Youtube : thierrydelnatte
Humeur : Adore (trop) la mise en boite


MessageSujet: Re: Betty de Bernard Lavilliers   Jeu 11 Avr 2013 - 15:42

Perso j'ai préféré la version nylon ...j'aime beaucoup la sérénité et la mélancolie qui émerge de l'ensemble de ton interprétation nylon comme folk ...ce qui ... à mes yeux est plus important que quelques rippages ou placements de voix qui en plus sont tres peu nombreux.

A ce rythme de jeu, ce qui me surprend un peu c'est le manque d'inflexion sur certains mots mais c'est du Lavilliers et beaucoup sa manière de faire.
Revenir en haut Aller en bas
http://www.youtube.com/user/thierrydelnatte?feature=mhum
durbecos

Pilier de bar
avatar

Masculin Messages : 2688
Date d'inscription : 31/07/2011
Age : 53
Localisation : brive la gaillarde
Pseudo Youtube : durbecos
Humeur : j'ai décidé d'être heureux, c'est bon pour ma santé !


MessageSujet: Re: Betty de Bernard Lavilliers   Jeu 11 Avr 2013 - 16:09

tlswing a écrit :

le chant est un peu trop détaché saccadé, et j'ai l'impréssion qui manque une fin d'arpége par endroit, faut que je l'a récoute en détail avec la tab sous les yeux

tu sais, là ,le chant est diffiçile à placer, je l'ai fait au feeling et j'en suis assez content....pour les fins d'arpèges, tu as entierement raison, elles changent de façon irrégulière en fonction de ses put""""" d'accords et j'avoue en avoir zappé......

merci en tous cas et oui j'aimerais bien t'entendre là-dessus....!

@ torito : les cordes de mon autre classique ( ibanez) à manche bien large sont des savarez carte rouge à fort tirants...

@ thierrydelnatte : la guitare que j'utilise dans la reprise de betty est une electro-classique à cordes nylon ( cort) et la largeur de son manche s'apparente à celle d'une folk de base...moins aisé pour des accords brazil...

ce que je voulais dire, c'est que je possède une autre guitare classique ( ibanez) et qu'avec cette guitare, le morceau est plus simple à jouer mais le son n'est pas à la hauteur de la cort ( numérique oblige...)...
Revenir en haut Aller en bas
Cheyenne

Fondateur
avatar

Féminin Messages : 1775
Date d'inscription : 10/08/2010
Age : 36
Localisation : 69 (Haut Beaujolais)
Pseudo Youtube : cheyacoustic
Humeur : Très aléatoire...


MessageSujet: Re: Betty de Bernard Lavilliers   Jeu 11 Avr 2013 - 17:30

J'ai eu du mal à visionner la video qui voulait pas charger correctement chez moi

Ma première réaction a été... tiens! Mais il est super sérieux, concentré et tout Laughing

J'aime toujours regarder tes videos, parce qu'on sent que tu t'éclates et c'est communicatif

Mais ça te vas bien aussi ce petit côté calme et posé

Je n'ai pas de critique à formuler, moi, j'ai trouvé que c'était un joli moment

_________________
Revenir en haut Aller en bas
durbecos

Pilier de bar
avatar

Masculin Messages : 2688
Date d'inscription : 31/07/2011
Age : 53
Localisation : brive la gaillarde
Pseudo Youtube : durbecos
Humeur : j'ai décidé d'être heureux, c'est bon pour ma santé !


MessageSujet: Re: Betty de Bernard Lavilliers   Jeu 11 Avr 2013 - 19:29

là chey :

Je te dis je t’aime dans ce court poème – dans ce long baiser

Tu es ma frangine – juste une féminine que j’avais rimée


Je te donne ma force – mes mots et mes notes pour te réchauffer

Je hais la morale – les prisons centrales – les maisons d’arrêt


j'aime faire le con en chantant mais pas que...cette chanson de nanard m'a toujours boulversé sans compter que la partie guitare est un monument...une sorte de collector du gratteux !

c'est pas du cocoon avec chuppee, par exemple.....!

je deconne bien evidemment...!

tu vois que j'aime ne pas être sérieux...ah ah...
Revenir en haut Aller en bas
Cheyenne

Fondateur
avatar

Féminin Messages : 1775
Date d'inscription : 10/08/2010
Age : 36
Localisation : 69 (Haut Beaujolais)
Pseudo Youtube : cheyacoustic
Humeur : Très aléatoire...


MessageSujet: Re: Betty de Bernard Lavilliers   Jeu 11 Avr 2013 - 20:53

On verras si tu te moqueras quand j'aurai enfin réussi à enregistré "le sud" version FreeChet MOUAHAHAHAH

Mais je maintiens, j'ai vraiment trouvé ça très sympa de te voir dans ce registre-là Wink

_________________
Revenir en haut Aller en bas
durbecos

Pilier de bar
avatar

Masculin Messages : 2688
Date d'inscription : 31/07/2011
Age : 53
Localisation : brive la gaillarde
Pseudo Youtube : durbecos
Humeur : j'ai décidé d'être heureux, c'est bon pour ma santé !


MessageSujet: Re: Betty de Bernard Lavilliers   Jeu 11 Avr 2013 - 21:44

...merci chey..!
Revenir en haut Aller en bas
torito

Pilier de bar
avatar

Masculin Messages : 2044
Date d'inscription : 11/08/2010
Age : 51
Localisation : 34 l'herault, entre Agde et Pézenas


MessageSujet: Re: Betty de Bernard Lavilliers   Jeu 11 Avr 2013 - 23:26

C'est pour moi un monument de la chanson... de lavilliers en tout cas !

quelques petits couics... j'ai trouvé le chant bon. (pas la chauchiche par contre)

belle technique qu'il te faut peauffiner mais ouaou ... j en suis ecoeuré avant de commencer à la jouer tellement ça a l air difficile.

Si ça t'intéresse... Pour les cordes classiques je prenais savarez aussi mais la corde de ré est vraiment trop fragile... (remarque toi visiblement 3 ans et pas cassée !)
j'ai testé plusieurs autres marques a des prix plus ou moins élevés et mon choix se porte assez volontiers sur les ProArté d'Addario EJ46, hard tension;

Revenir en haut Aller en bas
voldenuit

Squatteur
avatar

Féminin Messages : 198
Date d'inscription : 21/10/2012
Age : 53
Localisation : Avignon (Vaucluse)
Pseudo Youtube : voldenui84


MessageSujet: Re: Betty de Bernard Lavilliers   Dim 14 Avr 2013 - 10:51

Purééé c'est une sacrée belle reprise ça. Moi je fais partie de ceux qui préfèrent que l'on ne s'éloigne pas trop de l'original. (Question de goût Very Happy ) Là pour le coup, je suis sur le Q !
T'as dû sacrément en baver pour les accords et comme tu dis : fallait tenir la distance ! Top Bravo
Je me suis laissée bercée par ta douce voix sur ce titre. Bravo Bravo
Revenir en haut Aller en bas
durbecos

Pilier de bar
avatar

Masculin Messages : 2688
Date d'inscription : 31/07/2011
Age : 53
Localisation : brive la gaillarde
Pseudo Youtube : durbecos
Humeur : j'ai décidé d'être heureux, c'est bon pour ma santé !


MessageSujet: Re: Betty de Bernard Lavilliers   Lun 15 Avr 2013 - 22:23

smack caro...........!

oui, j'en ai bavé pour ces satanés accords...
Revenir en haut Aller en bas
rodolphe

Squatteur
avatar

Masculin Messages : 180
Date d'inscription : 26/08/2010
Age : 53
Localisation : ploeven
Humeur : au taquet


MessageSujet: Re: Betty de Bernard Lavilliers   Mar 16 Avr 2013 - 13:57

c'est un bon debut, mais gros gros problème de mise en place rythme/chant sur ce titre de lavilier qui n'est vraiment pas évident. je l'ai essayé en mon temps avec aussi beaucoup de difficulté. j' ai d'abord travaillé la guitare seul, sur le disque, puis le chant seul, et j'ai essayé de me mettre le tout en corrélation, avec énormément de mal. j'ai pas de conseilles a te donner, j'imagine que tu l'as assez écouté cette chanson et tu n'es plus un lapin de trois semaines, alors bosse le, et c'est tout.
Revenir en haut Aller en bas
durbecos

Pilier de bar
avatar

Masculin Messages : 2688
Date d'inscription : 31/07/2011
Age : 53
Localisation : brive la gaillarde
Pseudo Youtube : durbecos
Humeur : j'ai décidé d'être heureux, c'est bon pour ma santé !


MessageSujet: Re: Betty de Bernard Lavilliers   Mar 16 Avr 2013 - 16:06

merci rodolphe...c'est un bon début, c'est vrai qu'elle est assez raide...et nan, pas un lapin de 3 semaines, ni même un poulet élevé en plein air...!

je bosse, je bosse...
Revenir en haut Aller en bas
nosvtec

Fondateur
avatar

Masculin Messages : 955
Date d'inscription : 11/04/2012
Age : 35
Localisation : charente (16)
Humeur : tout dépend de vous ...


MessageSujet: Re: Betty de Bernard Lavilliers   Mer 17 Avr 2013 - 17:31

alors pour êtres tout a fait honnête je n'accroche pas trop au morceau de base donc je peut juste dire que la technique employer reste impressionnant etq ue ont sent qu il y as du boulot derrière !

_________________
Revenir en haut Aller en bas
durbecos

Pilier de bar
avatar

Masculin Messages : 2688
Date d'inscription : 31/07/2011
Age : 53
Localisation : brive la gaillarde
Pseudo Youtube : durbecos
Humeur : j'ai décidé d'être heureux, c'est bon pour ma santé !


MessageSujet: Re: Betty de Bernard Lavilliers   Mer 17 Avr 2013 - 21:52

ah les goûts et les couleurs.....et, oui, y a un peu de boulot, merci jimy...!
Revenir en haut Aller en bas
Contenu sponsorisé




MessageSujet: Re: Betty de Bernard Lavilliers   

Revenir en haut Aller en bas
 

Betty de Bernard Lavilliers

Voir le sujet précédent Voir le sujet suivant Revenir en haut 

 Sujets similaires

-
» Betty de Bernard Lavilliers
» bernard Lavilliers la samba
» Betty de Bernard Lavilliers
» Bernard Lavilliers
» bernard lavilliers
Page 1 sur 1

Permission de ce forum:Vous ne pouvez pas répondre aux sujets dans ce forum
ACOUSTIC COMPTOIR :: Guitare et Chant :: Videos :: Les videos à la guitare acoustique-